Загрузка...

The Cranberries Zombie аккорды - аккорды песни the cranberries zombie

Вы сейчас просматриваете страницу с песней Zombie аккорды - The Cranberries mp3 - скачать и слушать онлайн, текст песни и смотреть клип онлайн без регистрации и смс

Исполнитель: The Cranberries

Название: Zombie (аккорды)

Продолжительность песни: 05:05

Добавлен: 2015-05-25

Слушали: 481


Скачать


Ещё песни The Cranberries
Текст песни:

EmCGD

Another head hangs lowly
Child is slowly taken
And the violence caused such silence
Who are we mistaken

but you see, it?s not me
it?s not my family
in your head, in your head
they are fighting

With their tanks, and their bombs
and their bombs, and their guns
In your head, in your head they are cryin?
In your head, In your head
Zombie, etc.
What?s in your head in your head, in your head
Zombie, etc.

Another mother?s breakin?
heart is taking over
when the violence causes silence
we must be mistaken
it?s the same old theme since 1916
in your head,
in your head they?re still fightin?

E-0-0-0-0-0-0-0-0--------------------0--0--0--0--0--0--0--0--

B-0-0-0-0-0-0-0-0--------------------0--0--0--0--0--0--0--0--

G-0-0-0-0-0-0-0-0--------------------0--0--0--0--0--0--0--0--

D-2-2-2-2-2-2-2-2-------------------10-10-10-10-10-10-10-10--

A-2-2-2-2-2-2-2-2-------------------10-10-10-10-10-10-10-10--

E-0-0-0-0-0-0-0-0--------------------8--8--8--8--8--8--8--8--



E--0-0-0-0-0-0-0-0--------------------0-0-0-0-0-0-0-0--

B--0-0-0-0-0-0-0-0--------------------0-0-0-0-0-0-0-0--

G--0-0-0-0-0-0-0-0--------------------0-0-0-0-0-0-0-0--

D--5-5-5-5-5-5-5-5--------------------4-4-4-4-4-4-4-4--

A--5-5-5-5-5-5-5-5--------------------4-4-4-4-4-4-4-4--

E--3-3-3-3-3-3-3-3--------------------2-2-2-2-2-2-2-2--



Тяжелая часть:



E-------------------------------------------------------------

B-------------------------------------------------------------

G-------------------------------------------------------------

D-2-2-2-2-2-5-4-10-10-10-10-10-10-10-5-5-5-5-5-5-5-4-4-4-4-4-4

A-2-2-2-2-2-5-4-10-10-10-10-10-10-10-5-5-5-5-5-5-5-4-4-4-4-4-4

E-0-0-0-0-0-3-2--8--8--8--8--8--8--0-3-3-3-3-3-3-0-2-2-2-2-2-2

Видео клип Zombie by The Cranberries - How to play Guitar Lesson
Добавить комментарий